J'évite le soleil

by Daran et les chaises

/
1.
2.
3.
4.
5.
6.
7.
8.
9.
10.

credits

released September 7, 1992

tags

license

all rights reserved

feeds

feeds for this album, this artist

about

Daran Montréal, Québec

contact / help

Contact Daran

Track Name: En écoutant Johnny Diesel
(Intro)
--------------------------------------------------------------------------
--------------------------------------------------------------------------
--4--4--4-----4-----4--4--4-----4-----4--4--4-----4-----4--4--4-----4-----
--4--4--4-----4-----4--4--4-----4-----4--4--4-----4-----4--4--4-----4-----
--2--2--0-----0-----2--2--0-----0-----2--2--0-----0-----2--2--0-----0-----
-----------2-----2-----------2-----2-----------2-----2-----------2-----2--

-----------------------------------------------------------------
-----1--1--0------3--3--2----------------------------------------
-----0--0--0--2---2--2--2----4--4--4-----4-----4--4--4-----4-----
-----2--2--0--2---4--4--2----4--4--4-----4-----4--4--4-----4-----
--------------0---0--0--0----2--2--0-----0-----2--2--0-----0-----
--3-----------------------------------2-----2-----------2-----2--

-----------------------------------------------------------------
-----1--1--0------3--3--2----------------------------------------
-----0--0--0--2---2--2--2----4--4--4-----4-----4--4--4-----4-----
-----2--2--0--2---4--4--2----4--4--4-----4-----4--4--4-----4-----
--------------0---0--0--0----2--2--0-----0-----2--2--0-----0-----
--3-----------------------------------2-----2-----------2-----2--

(Riff couplet)
-------------------------------------------------------------
--------------------------------3--3--------3--3-----(3------
-----0--0--0--2---2--2----------2--2--4--4--2--2--4--(2--4)--
-----2--2--0--2---4--4----------------4--4--------4--(---4)--
--------------0---0--0------2--------------------------------
--3---------------------5b-----------------------------------

Ce matin, j'ai du mal à faire surface
Encore une journée que j'aimerais voir passer en vitesse
Ne me demande pas toujours où je vais
Je ne sais pas moi-même où la route m'emmène
Où va-t-elle

(Riff refrain)
-----------------------------------------------------------------
-----1--1--0------3--3--2----------------------------------------
-----0--0--0--2---2--2--2----4--4--4-----4-----4--4--4-----4-----
-----2--2--0--2---4--4--2----4--4--4-----4-----4--4--4-----4-----
--------------0---0--0--0----2--2--0-----0-----2--2--0-----0-----
--3-----------------------------------2-----2-----------2-----2--

J'ai roulé toute la nuit
En écoutant Johnny Diesel
Roulé toute la nuit
Pour faire le plein de décibels

(Riff couplet)
Et si je te disais que bien avant toi
Je n'avais qu'une envie, celle de tracer tout droit vers le soleil
Je suis parti bien avant, avant qu'on s'engueule
On ne pleure jamais si bien que quand on est vraiment tout seul
Sans sommeil

(Riff refrain)
J'ai roulé toute la nuit
En écoutant Johnny Diesel
J'ai roulé toute la nuit
Pour faire le plein de décibels
J'ai roulé toute la nuit
En écoutant Johnny Diesel
Roulé, roulé
Pour faire le plein de décibels

(Riff break, 2 fois)
--------------------------------------------------
--------------------------------------------------
---------7--7--------7--7-------7--7--------7--7--
---------7--7--9--9--7--7--9----7--7--9--9--7--7--
---------------9--9--------9----------9--9--------
--5b--7-------------------------------------------

Ne me demande pas toujours où je vais
Ne me demande pas
Je ne sais même pas encore où je vais
Ne me demande

(Riff refrain)
J'ai roulé toute la nuit
En écoutant Johnny Diesel
Roulé toute la nuit
Pour faire le plein de décibels
J'ai roulé sous la pluie
En écoutant Johnny Diesel
Roulé, roulé, roulé, pour faire le plein de décibels...
Track Name: Y'a des chaises pour s'asseoir
A5 = x022xx D5 = xx0235
Cadd9 = x3203x G = 3200xx
Dm = xx0231 G/B = x2003x
D = xx0232


(Intro)
-----------------------------------------------------------
-----------------------------------------------------------
--2--2--2---2---2--2--2--X-------2--2--2---2---2--2--2--X--
--2--2--2---2---2--2--2--X-------2--2--2---2---2--2--2--X--
--0--0--0---0---0--0--0--X--3p0--0--0--0---0---0--0--0--X--
-----------------------------------------------------------
A5 - G - D5 - Cadd9 - G/B
A5 - G - D5 - Cadd9 - G/B

A5 G D Cadd9 G/B
Black dans mon dedans depuis tout p'tit que je traine oh je traine
A5 G D Cadd9 G/B
Dans mes pensions sans âme dépourvues d'oxygène
A5 G D
J'aime marcher sous la pluie la nuit pendant des heures
Cadd9 G/B
Dans la cour intérieure quand c'est interdit
A5 G
S'il vous plaît mademoiselle
D Cadd9 G/B
Y-a-t-il un seul endroit pour s'aimer par ici ?


A5
Y'a des chaises pour s'asseoir
G Dm Cadd9 G/B
Sans rien dire devant le tableau noir
A5
Y'a des choses à savoir
G Dm
Faut jamais courir dans le couloir
Cadd9 G/B
J'veux sortir, j'veux sortir

A5 - G - D5 - Cadd9 - G/B

A5 G D Cadd9 G/B
Black dans mon dedans depuis le temps que j'espère oh j'éspère
A5 G
Rattraper toutes ces heures, les heures de liberté
D Cadd9 G/B
De ceux qui sortent à cinq heures.


A5
Y'a des chaises pour s'asseoir
G Dm Cadd9 G/B
Sans rien dire devant le tableau noir j'veux sortir
A5
Y'a des choses à savoir
G Dm
Faut jamais courir dans le couloir
Cadd9 G/B
J'veux sortir
A5
Y'a des chaises pour s'asseoir
G Dm Cadd9 G/B
Sans rien dire devant le tableau noir j'veux sortir

A5
Y'a d'immenses dortoirs
G Dm
Et des rêves qui ne mènent nulle part
Cadd9 G/B
j'veux sortir, j'veux sortir

A5 - G - Dm - Cadd9 - G/B (ad libitum)


(Riff 2ème guitare)
-----------------------------
-----------------------------
--------------0-----------0--
-----------0-----------0-----
--0--2--3--------3--2--------
-----------------------------