Le petit peuple du bitume

by Daran

/
1.
2.
3.
4.
5.
6.
7.
05:21
8.

credits

released January 29, 2007

tags

license

all rights reserved

feeds

feeds for this album, this artist

about

Daran Montréal, Québec

contact / help

Contact Daran

Track Name: Le petit peuple du bitume
Am = x02210
Am/G = 302210
Am6 = x04210 (ou x 0 10 9 7 0)
C = x32010
Cadd9 = x32033
Csus2add13 = x30233
CM7 = x32000
C#m = x46654
D = xx0232
Em = 0220xx
Em0 = 022000
Em/C# = x42000
G = 3200xx
GIII = 320033
Gsus4 = 3300xx
G5add9/E = 0000xx
G7Madd13/D = x54000

Intro
Gsus4 G Em G5add9/E (4 fois)

Couplet
Gsus4 G Em
Quand le soleil s'éteint sur le dépôt des trains,
G5add9/E Gsus4 G Em G5add9/E Gsus4
Ici s'al - lume le petit peuple du bitume.
G Em
Quand la nuit se conforme à nos regards infirmes,
G5add9/E Gsus4 G Em
Une foule énorme grouille puis se confirme.

Refrain
C C#m
La lune s’anime sur la pendule des trains.
C Am6 Em0 G7Madd13/D
Quand la nuit s’enveni - ime s’ébranle alors la procession.
C
Et ça marche et ça crève, et ils sont des millions
Am6 Em0
Qui se touchent et se hument, le petit peuple du bitume.

(Suggestion pour regrouper les 2 guitares du refrain)
-0-----3-(0)----4--0-------(0)-0--0-0--0-------(0)-0--0-0-0--
-1-3-1-1--5-4---5--1-3-----(1)-1--0-0--1-3-----(1)-1--0-1-0--
-0-0-0-0--6-6-6-6--0-0-----(5)-2--0-0--0-0-----(5)-2--0-0-0--
-2-2-2-2--6-6-6-6--2-2-----(4)-4--2-4--2-2-----(4)-4--2-2-2--
-3-3-3-3--4-4-4-4--3-3-(2)-(0)-0--2-5--3-3-(2)-(0)-0--2-2-2--
----------------------------------0-0-----------------0-0-0--

Couplet
Leur vie est comme la nôtre, c'est une question d'étage
Ils rêvent, ils s'aiment ils s'assassinent, alors leur haleine fume,
Et ça devient la brume qui devient les nuages,
Am6 Em
Et il hurle à la lune, le petit peuple du bitume

Refrain
Il danse au pied des grandes grues titanes,
En formes de femmes posthumes mais tu ne l’entends pas.
Tu ne le vois pas, ils sont des millions, qui se touchent et se hument,
Le petit peuple du bitume

(Suggestion pour regrouper les 2 guitares du refrain)
-0-----3-(0)----4--0-------(0)-0--0-0--0-------(0)-0--0--
-1-3-1-1--5-4---5--1-3-----(1)-1--0-0--1-3-----(1)-1--0--
-0-0-0-0--6-6-6-6--0-0-----(5)-2--0-0--0-0-----(5)-2--0--
-2-2-2-2--6-6-6-6--2-2-----(4)-4--2-4--2-2-----(4)-4--2--
-3-3-3-3--4-4-4-4--3-3-(2)-(0)-0--2-5--3-3-(2)-(0)-0--2--
----------------------------------0-0-----------------0--



Pont 1
GIII Cadd9 Csus2add13
Ça sert à rien cette vie de chien
GIII Cadd9 Csus2add13
Qui te console et me consume.
Em0 G7Madd13/D Em/C# CM7
Ça rime à quoi cette vie de rat qu’on a là.
Am Am/G CM7 Am6 Em0
Je dis ça, je dis ça mais ne me laisse pas au petit peuple du bitume.

Solo sur grille d'1 couplet + 1 refrain

Couplet
Des gros enfants digèrent dans les bras de leurs mères.
Son haleine fume, le petit peuple du bitume.

Refrain
Une foule énorme fourmille puis se restreint,
Puis se confine jusqu’à n’être plus rien,
Quand partira le premier train.
Et pourquoi toi, tu ne les vois pas
ils sont des millions qui se touchent et se hument,
Tous ceux qui peuplent mon enclume.

Pont 2 (comme le Pont 1 avec D à la fin à la place de Am6 Em0)
Ça sert à rien cette vie de chien qui te console et me consume.
Ça rime à quoi cette vie de rat qu’on a là
Je dis ça, je dis ça, mais serre moi fort, ne me laisse pas.

Pont 3 (comme le Pont 1)
Quand les chats me font les yeux d'or à cette heure,
Qui te console et me consume.
Ça sert à quoi cette vie de rat qu’on a là
Mais ne me laisse pas au petit peuple du bitume
Track Name: Caméra de surveillance
Am = x02210
Bm* = x2443x
C = x32010
Dm9/A (A6add11) = 500560
Dadd9/F# = 200230
Em = 022000
F = 133211
F7M = 133210
F7M/A = x03210
F7M/C = x33210
F7M9/A = x03010
F#m = 244222
F# = 244322
G = 355433


Intro
Bm* G Bm* G
Bm* G Bm* G F#m F#
Bm* G Bm* G F#m F Em

Couplet
C F7M9/A C F7M9/A
Toute la semaine ça court, ça va bosser en haut de la tour
Am Em F7M/C C
Ça monte et ça descend sans trop faire de vent
C F7M9/A C F7M9/A
Ça suit sagement sa cravate, ici y a plus qu'des bureaucrates
Am Em F7M/A C
Et plus aucun problème de violence, grâce aux progrès de la science

Refrain
Am Dadd9/F# Dm9/A Em
C’est ici que se joue la vie des gens
Sur l’écran je surveille les sentiments
C’est mon rôle je contrôle la vie des gens au dedans
Au dedans

Couplet
Quand ils déboulent sur l’esplanade, ils croient qu’ils s’évadent
C’est là que j’interviens, les flics les chiens, y a plus besoin
Plus la peine de leur taper dessus, c’est limpide un individu
Elles scannent les consciences mes caméras de surveillance

Refrain
C’est ici que se joue la vie des gens
Sur l’écran je surveille les sentiments
C’est mon rôle je contrôle la vie des gens au dedans
Au dedans
C’est ainsi que se noue la vie des gens
Je surveille, je trie les bons les méchants
C’est mon rôle, je contrôle la vie des gens au-dedans
Au dedans

Pont instru
Bm* G Bm* G F#m F#
Bm* G Bm* G F#m F Em

-------------------------------------------------------------------
-------------------------------------------------------------------
-11-9\4-4-7/11-11-9\4-4-7-6-6/11-11-12-11-9\4-4-7/11-11-9\4-4-7-6--
-------------------------------------------------------------------
-------------------------------------------------------------------
-------------------------------------------------------------------

-------------------------------------------------------------------
------------------0------------------------------------------------
-b6(7)-5-4\2-2/4-9\7/9---------------------------------------------
-------------------------------------------------------------------
-------------------------------------------------------------------
-------------------------------------------------------------------


Couplet
J’ai juste un petit problème quand j’en vois deux qui s’aiment
Inévitablement je pense à mon adolescence
A tous les coups ça me désarme, il faut que je détourne les yeux
Y a même des fois je verse une larme, pourtant c’est eux les plus dangereux

Solo sur grille refrain
Am Dadd9/F# Dm9/A Em (4 fois)

Refrain
C’est ici que se joue la vie des gens
Sur l’écran je surveille les sentiments
C’est mon rôle je contrôle la vie des gens au dedans
Au dedans
Am
Au-dedans

F7M Am
Ici que se joue la vie des gens au dedans
F7M Em (...puis retour sur PPDB)
Au dedans