Pêcheur de pierres

by Daran

/
1.
2.
3.
4.
5.
6.
7.
8.
9.
10.
11.
12.
13.

credits

released May 20, 2003

tags

license

all rights reserved

feeds

feeds for this album, this artist

about

Daran Montréal, Québec

contact / help

Contact Daran

Track Name: Gyrophare
(Basse)
----------------------------------------------
----------------------------------------------
---1-1---------1-1-------1-1---------1-1------ ...
-1-----4-4-4-1-----1-1-1-----4-4-4-1-----1-1--

Faudra courir encore peut-être pour rattraper la vie
Encore sauter par des fenêtres et pas payer la nuit
On sait toujours ce qu’on quitte, la Chevrolet s’enfuit
La route c’est là qu’on habite, pas d’amour pas d’amis

On n’peut pas toujours être honnête, faut bien gagner sa vie
On n’peut pas s’mettre à faire la quête devant les boulangeries
Si y'en a qui sont assez bêtes pour échanger leur vie
Contre une poignée de pésètes
On n’y peut rien tant pis

On n’y peut rien tant pis

(Riff guitare)
--------------------------------------------------------------------------
------------------------------------------(6)---------------------(6)-----
---------------------5-----------------------5-----------------------5----
---1-----6-----1-------3---1-----6-----1-------3---1-----6-----1-------3--
-----3-----4-----3-4---------3-----4-----3-4---------3-----4-----3-4------
-1-----6-----4-----------1-----6-----1-----------1-----6-----4------------
La mort est un gyrophare qui tourne dans le brouillard
Est-ce que la mort nous suit ? Est-ce que la mort nous fuit ?
Est-ce que la mort nous suit ? Est-ce que la mort nous fuit ?

(Basse)
On n’attend pas qu’on nous invite, on n’dit jamais merci
Chaque fois on part un peu plus vite, on n’était pas ici
Soudain la Chevrolet dévisse et plonge dans la nuit
Est-il possible qu’il existe pour elle un paradis ?
Est-il possible qu’il existe pour elle un paradis ?

Pour elle un paradis

(Riff guitare)
Et je vois le gyrophare qui tourne dans le brouillard
Est-ce que la mort nous suit ? Est-ce que la mort nous fuit ?
Est-ce que la mort nous suit ? Est-ce que la mort nous fuit ?

(Solo sur basse)

(Riff guitare)
--------------------------------------------------
------------------(6)---------------------(6)-----
---------------------5-----------------------5----
---1-----6-----1-------3---1-----6-----1-------3--
-----3-----4-----3-4---------3-----4-----3-4------
-1-----6-----1-----------1-----6-----4------------
Est-ce que la mort nous suit ? Est-ce que la mort nous fuit ?
(Y a une seule chose qui m’inquiète, est-ce qu’après on s’ennuie ?)
Est-ce que la mort nous suit ? Est-ce que la mort nous fuit ?
(Est-ce qu’après on s’ennuie ?)